Yüksek Sadakat - Aşk Durdukca (Gitar)

+ Yorum Gönder
Müzik Köşesi ve Gitar Akorları Bölümünden Yüksek Sadakat - Aşk Durdukca (Gitar) ile ilgili Kısaca Bilgi
  1. 1
    CaRaMeLa
    Bayan Üye
    Reklam

    Yüksek Sadakat - Aşk Durdukca (Gitar)

    Reklam



    Yüksek Sadakat - Aşk Durdukca (Gitar)

    Forum Alev
    İntro Arpej:

    E||---3-------3----0---------0----|--7-------7----5-------5----|
    B||-------------------------------|----------------------------|
    G||*------0-----0------0-------0--|------0-----0------0-----0--|
    D||*--2-----2---------------------|--5-----5------4-----4------|
    A||----------------3------3-------|----------------------------|
    E||-------------------------------|----------------------------|

    Solo:
    (ÜÇLEME)|---3--|
    E||--------|---------------------------|
    B||--------|---------------------------|
    G||*-------|---------------------------|
    D||*-------|-----------------5--7s--9--|
    A||--------|---------------------------|
    E||--------|---------------------------|


    --------------------------------|--------------------------------|
    --------------------------------|--------------------------------|
    -----------------------/9--7--5-|-4s----7--7--5--4---------------|
    --9----10--9s--7--5-------------|-------------------7---5--7s--9-|
    --------------------------------|--------------------------------|
    --------------------------------|--------------------------------|

    ------------------------------------|-----------------------||
    ------------------------------------|-----------------------||
    ------------------------------------|-----------------------||
    --9--------10--9s--7--5--------5----|--5--------5s--7--7--5-||
    ------------------------------------|-----------------------||
    ------------------------------------|-----------------------||


    Em C D
    Dünya döner bir gün daha
    Em C G D
    Yeryüzünde aşk durdukça
    Em C G D
    Gece erken inse bile korkma
    Em C D
    O hep seninle kaldıkça

    Em C D
    Biliyorsun gitmem gerek
    Em C G D
    Yollar bitmez düşünerek
    Em C G D
    İster sonuç de istersen sebep
    Em C D
    Bu düğümü çözmem gerek

    Em C
    Belki sana yazarım
    D G
    Uğradığım bir şehirden
    Em C
    Eski bir kart atarım
    D
    Mekke ya da kudüs'ten

    Em C
    Sonra bir gün çıkarım
    D G
    Sen artık dönmez derken
    Em C
    Bir şarkı fısıldarım
    B7
    Kulağına gün batarken

    Em C
    Dünya döner tek bir yana (aşk durdukça)
    G D
    Doğsun diye gün bir daha (aşk durdukça)
    Em C
    Ben de döndüm tekrar sana (aşk durdukça)
    G D
    Sönmek için yana yana (aşk durdukça)



  2. 2
    AYSEVEN
    Bayan Üye

    Cevap: Yüksek Sadakat - Aşk Durdukca (Gitar)

    Reklam



    bir türk rock gurubu olan yüksek sadakat önce başka bir gurup ismi ile çıksada daha sonra yeni ismi ile müzik sektöründe boy gösterdi gurup türkiyede çok sevilmiştir







+ Yorum Gönder
5 üzerinden 5.00 | Toplam : 1 kişi