Coldplay - The Scientist (tab) -Gitar Akorları

+ Yorum Gönder
Müzik Köşesi ve Gitar Akorları Bölümünden Coldplay - The Scientist (tab) -Gitar Akorları ile ilgili Kısaca Bilgi
  1. 1
    aybuke
    Usta Üye
    Reklam

    Coldplay - The Scientist (tab) -Gitar Akorları

    Reklam



    Coldplay - The Scientist (tab) -Gitar Akorları

    Forum Alev
    Coldplay - The Scientist (tab) -Gitar Akorları
    Dm A# F* Fsus2*
    |-5---5---5---5---|-6---6---6---6---|-----------------|-----------------|
    |-6---6---6---6---|-6---6---6---6---|-1---1---1---1---|-1---1---1---1---|
    |-7---7---7---7---|-7---7---7---7---|-2---2---2---2---|-0---0---0---0---|
    |---7---7---7---7-|---7---7---7---7-|---3---3---3---3-|---3---3---3---3-|
    |---5---5---5---5-|---8---8---8---8-|---3---3---3---3-|---3---3---3---3-|
    |-----------------|---8---8---8---8-|---1---1---1---1-|---1---1---1---1-|

    Part 2: (piano arranged for guitar(left-hand piano))

    Dm A# F Fsus2

    |-5---5---5---5---|-6---6---6---6---|-----------------|-----------------|
    |-6---6---6---6---|-6---6---6---6---|-1---1---1---1---|-1---1---1---1---|
    |-7---7---7---7---|-7---7---7---7---|-2---2---2---2---|-0---0---0---0---|
    |-7---7---7---7---|-7---7---7---7---|-3---3---3---3---|-3---3---3---3---|
    |-5---5---5---5---|-8---8---8---8---|-3---3---3---3---|-3---3---3---3---|
    |-----------------|-8---8---8---8---|-1---1---1---1---|-1---1---1---1---|

    Intro repeat twice
    Verse repeat x4

    Chorus: Uses same patterns as above parts.

    A# | A# | F | Fsus2
    A# | A# | F | Fsus2
    C | C | F | A#
    F | F




  2. 2
    AYSEVEN
    Bayan Üye

    Cevap: Coldplay - The Scientist (tab) -Gitar Akorları

    Reklam



    2002 de müzik dünyasına hızlı bir giriş yapan sanatçı en iyi müzik klibi dalında mtv video müzik ödülü almıştır ayrıca sanatçı bir çok ödülede yine aday gösterilmiştir







+ Yorum Gönder
5 üzerinden 5.00 | Toplam : 1 kişi