Kalp kalbe karşı flüt notaları

+ Yorum Gönder
Müzik Köşesi ve Şarkı Notaları Bölümünden Kalp kalbe karşı flüt notaları ile ilgili Kısaca Bilgi
  1. 1
    Fatal
    Özel Üye
    Reklam

    Kalp kalbe karşı flüt notaları

    Reklam



    Kalp kalbe karşı flüt notaları

    Forum Alev
    E --7--8--10-----7--5---7--5--3----1--0---1----0-1---0--
    B --------------------------------------------3------------
    U-yan-dım bir-den se-nin-le gece üçü bul-ma mış

    E --7--8--10--7---5-7--7--5--3----1--1---1-----0--1----0-
    B -------------------------------------------3---------------
    Bir bu-lut dur du gö-züm-de hasret bizi bul-ma mış

    E --7--8--10----7-7----5--3-3---5--7--8---5--3-3--1------
    B ----------------------------------------------------------
    Kalp kalbe karşı der-ler sen-de ü- zül-dün-mü

    E --5--3--5-7----0--3--1--0-----0-----0-------1---0---
    B ------------------------------3-----3----------------------
    Ay bile çe-ker gi-der beni hiç dü-şün-dün mü

    Arpej Düzeni: pimiamim

    Bm Em
    Uyandım birden seninle
    C Am Bm
    Gece üçü bulmamış
    Bm Em
    Bir bulut durdu gözümde
    C Am Bm
    Hasret bize uymamış

    Bm D Em C
    Kalp kalbe karşı derler, sende üzüldün mü
    D C Am Bm
    Ay bile çeker gider geceyi düşündün mü

    Bm D Em C
    Yalnızlık bende saklı çıkmaz bir an dışarı
    D C Am Bm
    Elimde bir fotoğraf o şimdi burda olmalı

    Bm D Em C
    Kalp kalbe karşı derler, sende üzüldün mü?
    D C Am Bm
    Ay bile çeker gider geceyi düşündün mü

    Bm D Em C
    Sensizlik bende saklı çıkmaz bir an dışarı
    D C Am Bm
    Elimde bir fotoğraf o şimdi burda olmalı



  2. 2
    Ziyaretçi

    Cevap: kalp kalbe karşı flüt notaları

    Reklam



    bunlar gitar akoru flüt deil







+ Yorum Gönder
uyandım birden seninle flüt notaları,  uyandım birden seninle notaları,  uyandım birden seninle flüt notası
5 üzerinden 5.00 | Toplam : 1 kişi